  0
SECTION
  2
HEADER
  9
$ACADVER
  1
AC1009
  9
$INSBASE
 10
-339.9866525462646
 20
-124.3323344724254
 30
0.0
  9
$EXTMIN
 10
-340.8150796710107
 20
-125.1607615971716
 30
0.0
  9
$EXTMAX
 10
364.1016954919667
 20
245.3771664200428
 30
0.0
  9
$LIMMIN
 10
0.0
 20
0.0
  9
$LIMMAX
 10
420.0
 20
297.0
  9
$ORTHOMODE
 70
     1
  9
$REGENMODE
 70
     1
  9
$FILLMODE
 70
     1
  9
$QTEXTMODE
 70
     0
  9
$MIRRTEXT
 70
     0
  9
$DRAGMODE
 70
     2
  9
$LTSCALE
 40
1.0
  9
$OSMODE
 70
     0
  9
$ATTMODE
 70
     1
  9
$TEXTSIZE
 40
3.5
  9
$TRACEWID
 40
0.05
  9
$TEXTSTYLE
  7
STANDARD
  9
$CLAYER
  8
0
  9
$CELTYPE
  6
BYLAYER
  9
$CECOLOR
 62
   256
  9
$DIMSCALE
 40
1.0
  9
$DIMASZ
 40
2.5
  9
$DIMEXO
 40
1.0
  9
$DIMDLI
 40
8.0
  9
$DIMRND
 40
0.0
  9
$DIMDLE
 40
0.0
  9
$DIMEXE
 40
2.0
  9
$DIMTP
 40
0.1
  9
$DIMTM
 40
0.1
  9
$DIMTXT
 40
3.5
  9
$DIMCEN
 40
2.0
  9
$DIMTSZ
 40
0.0
  9
$DIMTOL
 70
     0
  9
$DIMLIM
 70
     0
  9
$DIMTIH
 70
     0
  9
$DIMTOH
 70
     0
  9
$DIMSE1
 70
     0
  9
$DIMSE2
 70
     0
  9
$DIMTAD
 70
     1
  9
$DIMZIN
 70
     8
  9
$DIMBLK
  1

  9
$DIMASO
 70
     0
  9
$DIMSHO
 70
     0
  9
$DIMPOST
  1

  9
$DIMAPOST
  1

  9
$DIMALT
 70
     0
  9
$DIMALTD
 70
     2
  9
$DIMALTF
 40
25.39999999999999
  9
$DIMLFAC
 40
1.0
  9
$DIMTOFL
 70
     1
  9
$DIMTVP
 40
0.0
  9
$DIMTIX
 70
     0
  9
$DIMSOXD
 70
     0
  9
$DIMSAH
 70
     0
  9
$DIMBLK1
  1

  9
$DIMBLK2
  1

  9
$DIMSTYLE
  2
*UNNAMED
  9
$DIMCLRD
 70
     0
  9
$DIMCLRE
 70
     0
  9
$DIMCLRT
 70
     0
  9
$DIMTFAC
 40
1.0
  9
$DIMGAP
 40
0.09
  9
$LUNITS
 70
     2
  9
$LUPREC
 70
     3
  9
$SKETCHINC
 40
0.1
  9
$FILLETRAD
 40
20.0
  9
$AUNITS
 70
     0
  9
$AUPREC
 70
     3
  9
$MENU
  1

  9
$ELEVATION
 40
0.0
  9
$PELEVATION
 40
0.0
  9
$THICKNESS
 40
0.0
  9
$LIMCHECK
 70
     0
  9
$BLIPMODE
 70
     0
  9
$CHAMFERA
 40
0.0
  9
$CHAMFERB
 40
0.0
  9
$SKPOLY
 70
     1
  9
$TDCREATE
 40
2448798.382031597
  9
$TDUPDATE
 40
2449393.453895601
  9
$TDINDWG
 40
0.0003592593
  9
$TDUSRTIMER
 40
0.0003592593
  9
$USRTIMER
 70
     1
  9
$ANGBASE
 50
0.0
  9
$ANGDIR
 70
     0
  9
$PDMODE
 70
     3
  9
$PDSIZE
 40
2.0
  9
$PLINEWID
 40
0.0
  9
$COORDS
 70
     2
  9
$SPLFRAME
 70
     0
  9
$SPLINETYPE
 70
     6
  9
$SPLINESEGS
 70
     8
  9
$ATTDIA
 70
     1
  9
$ATTREQ
 70
     1
  9
$HANDLING
 70
     0
  9
$HANDSEED
  5
306
  9
$SURFTAB1
 70
     6
  9
$SURFTAB2
 70
     6
  9
$SURFTYPE
 70
     6
  9
$SURFU
 70
     6
  9
$SURFV
 70
     6
  9
$UCSNAME
  2

  9
$UCSORG
 10
0.0
 20
0.0
 30
0.0
  9
$UCSXDIR
 10
1.0
 20
0.0
 30
0.0
  9
$UCSYDIR
 10
0.0
 20
1.0
 30
0.0
  9
$PUCSNAME
  2

  9
$PUCSORG
 10
0.0
 20
0.0
 30
0.0
  9
$PUCSXDIR
 10
1.0
 20
0.0
 30
0.0
  9
$PUCSYDIR
 10
0.0
 20
1.0
 30
0.0
  9
$USERI1
 70
     0
  9
$USERI2
 70
     3
  9
$USERI3
 70
    15
  9
$USERI4
 70
     0
  9
$USERI5
 70
     0
  9
$USERR1
 40
0.0
  9
$USERR2
 40
1.0
  9
$USERR3
 40
0.0
  9
$USERR4
 40
1.0
  9
$USERR5
 40
0.0
  9
$WORLDVIEW
 70
     1
  9
$SHADEDGE
 70
     3
  9
$SHADEDIF
 70
    70
  9
$TILEMODE
 70
     1
  9
$MAXACTVP
 70
    16
  9
$PINSBASE
 10
0.0
 20
0.0
 30
0.0
  9
$PLIMCHECK
 70
     0
  9
$PEXTMIN
 10
1.000000000000000E+20
 20
1.000000000000000E+20
 30
1.000000000000000E+20
  9
$PEXTMAX
 10
-1.000000000000000E+20
 20
-1.000000000000000E+20
 30
-1.000000000000000E+20
  9
$PLIMMIN
 10
0.0
 20
0.0
  9
$PLIMMAX
 10
12.0
 20
9.0
  9
$UNITMODE
 70
     0
  9
$VISRETAIN
 70
     0
  9
$PLINEGEN
 70
     0
  9
$PSLTSCALE
 70
     0
  9
$TREEDEPTH
 70
  3020
  9
$DWGCODEPAGE
  3
undefined
  0
ENDSEC
  0
SECTION
  2
TABLES
  0
TABLE
  2
VPORT
 70
     2
  0
VPORT
  2
*ACTIVE
 70
     0
 10
0.0
 20
0.0
 11
1.0
 21
1.0
 12
11.643307910478
 22
151.3097955466312
 13
0.0
 23
0.0
 14
7.0
 24
7.0
 15
0.0
 25
0.0
 16
0.0
 26
0.0
 36
1.0
 17
0.0
 27
0.0
 37
0.0
 40
551.2842600381134
 41
1.275675675675675
 42
50.0
 43
0.0
 44
0.0
 50
0.0
 51
0.0
 71
     0
 72
 10000
 73
     1
 74
     0
 75
     0
 76
     0
 77
     0
 78
     0
  0
ENDTAB
  0
TABLE
  2
LTYPE
 70
     3
  0
LTYPE
  2
AUSGEZOGEN
 70
    64
  3
Solid line
 72
    65
 73
     0
 40
0.0
  0
LTYPE
  2
ITEM-STRICHPUNKT
 70
    64
  3
__ . __ . __
 72
    65
 73
     4
 40
3.599999999999999
 49
2.399999999999999
 49
-0.6
 49
0.0
 49
-0.6
  0
LTYPE
  2
ITEM-STRICHPGR
 70
    64
  3
____ . ____ . ____ . ____ . ____ . ____ . ____
 72
    65
 73
     4
 40
15.0
 49
10.0
 49
-2.5
 49
0.0
 49
-2.5
  0
ENDTAB
  0
TABLE
  2
LAYER
 70
     4
  0
LAYER
  2
0
 70
     0
 62
     7
  6
AUSGEZOGEN
  0
LAYER
  2
ITEM_50
 70
    64
 62
     7
  6
AUSGEZOGEN
  0
LAYER
  2
ITEM_STP
 70
    64
 62
     4
  6
ITEM-STRICHPUNKT
  0
LAYER
  2
ITEM_STPG
 70
    64
 62
     4
  6
ITEM-STRICHPGR
  0
ENDTAB
  0
TABLE
  2
STYLE
 70
     1
  0
STYLE
  2
STANDARD
 70
     0
 40
0.0
 41
1.0
 50
0.0
 71
     0
 42
3.5
  3
iso
  4

  0
ENDTAB
  0
TABLE
  2
VIEW
 70
     0
  0
ENDTAB
  0
TABLE
  2
UCS
 70
     0
  0
ENDTAB
  0
TABLE
  2
APPID
 70
     1
  0
APPID
  2
ACAD
 70
    64
  0
ENDTAB
  0
TABLE
  2
DIMSTYLE
 70
     0
  0
ENDTAB
  0
ENDSEC
  0
SECTION
  2
BLOCKS
  0
ENDSEC
  0
SECTION
  2
ENTITIES
  0
LINE
  8
ITEM_50
 10
-75.9866525462645
 20
243.4858147634991
 30
0.0
 11
-331.9866525462645
 21
243.4858147634991
 31
0.0
  0
LINE
  8
ITEM_50
 10
-75.9866525462645
 20
163.4858147635032
 30
0.0
 11
-331.9866525462645
 21
163.4858147635032
 31
0.0
  0
LINE
  8
ITEM_50
 10
-75.9866525462645
 20
243.4858147634991
 30
0.0
 11
-75.9866525462645
 21
163.4858147635032
 31
0.0
  0
LINE
  8
ITEM_50
 10
-75.9866525462645
 20
230.9858147635001
 30
0.0
 11
-331.9866525462645
 21
230.9858147635001
 31
0.0
  0
LINE
  8
ITEM_50
 10
-75.9866525462645
 20
225.9858147635001
 30
0.0
 11
-331.9866525462645
 21
225.9858147635001
 31
0.0
  0
LINE
  8
ITEM_50
 10
-75.98665254626445
 20
220.9858147635001
 30
0.0
 11
-331.9866525462645
 21
220.9858147635001
 31
0.0
  0
LINE
  8
ITEM_50
 10
-75.98665254626439
 20
215.9858147635001
 30
0.0
 11
-331.9866525462645
 21
215.9858147635001
 31
0.0
  0
LINE
  8
ITEM_50
 10
-75.98665254626439
 20
210.9858147635001
 30
0.0
 11
-331.9866525462645
 21
210.9858147635001
 31
0.0
  0
LINE
  8
ITEM_50
 10
-75.98665254626439
 20
205.9858147635001
 30
0.0
 11
-331.9866525462645
 21
205.9858147635001
 31
0.0
  0
LINE
  8
ITEM_50
 10
-75.98665254626433
 20
200.9858147635001
 30
0.0
 11
-331.9866525462645
 21
200.9858147635001
 31
0.0
  0
LINE
  8
ITEM_50
 10
-75.98665254626428
 20
195.9858147635001
 30
0.0
 11
-331.9866525462645
 21
195.9858147635001
 31
0.0
  0
LINE
  8
ITEM_50
 10
-75.98665254626428
 20
190.9858147635001
 30
0.0
 11
-331.9866525462645
 21
190.9858147635001
 31
0.0
  0
LINE
  8
ITEM_50
 10
-75.98665254626428
 20
185.9858147635001
 30
0.0
 11
-331.9866525462645
 21
185.9858147635001
 31
0.0
  0
LINE
  8
ITEM_50
 10
-75.98665254626422
 20
180.9858147635001
 30
0.0
 11
-331.9866525462645
 21
180.9858147635001
 31
0.0
  0
LINE
  8
ITEM_50
 10
-75.98665254626416
 20
175.9858147635001
 30
0.0
 11
-331.9866525462645
 21
175.9858147635001
 31
0.0
  0
LINE
  8
ITEM_50
 10
-75.98665254626416
 20
170.9858147635001
 30
0.0
 11
-331.9866525462645
 21
170.9858147635001
 31
0.0
  0
LINE
  8
ITEM_50
 10
-75.9866525462645
 20
235.9858147635001
 30
0.0
 11
-331.9866525462645
 21
235.9858147635001
 31
0.0
  0
LINE
  8
ITEM_50
 10
68.20683283190768
 20
-116.3323344724254
 30
0.0
 11
68.20683283190768
 21
139.6676655275745
 31
0.0
  0
LINE
  8
ITEM_50
 10
68.20683283190768
 20
139.6676655275745
 30
0.0
 11
-51.79171994288921
 21
139.6676655275745
 31
0.0
  0
LINE
  8
ITEM_50
 10
-51.79171994288921
 20
-116.3323344724254
 30
0.0
 11
-51.79171994288921
 21
139.6676655275745
 31
0.0
  0
LINE
  8
ITEM_50
 10
60.70683283190768
 20
139.6676655275745
 30
0.0
 11
60.70683283190768
 21
-116.3323344724254
 31
0.0
  0
LINE
  8
ITEM_50
 10
55.70683283190768
 20
139.6676655275745
 30
0.0
 11
55.70683283190768
 21
-116.3323344724254
 31
0.0
  0
LINE
  8
ITEM_50
 10
49.45683283190768
 20
139.6676655275745
 30
0.0
 11
49.45683283190768
 21
-116.3323344724254
 31
0.0
  0
LINE
  8
ITEM_50
 10
46.95683283190768
 20
139.6676655275745
 30
0.0
 11
46.95683283190768
 21
-116.3323344724254
 31
0.0
  0
LINE
  8
ITEM_50
 10
29.45683283190771
 20
139.6676655275745
 30
0.0
 11
29.45683283190771
 21
-116.3323344724254
 31
0.0
  0
LINE
  8
ITEM_50
 10
26.95683283190771
 20
139.6676655275745
 30
0.0
 11
26.95683283190771
 21
-116.3323344724254
 31
0.0
  0
LINE
  8
ITEM_50
 10
20.70683283190771
 20
139.6676655275745
 30
0.0
 11
20.70683283190771
 21
-116.3323344724254
 31
0.0
  0
LINE
  8
ITEM_50
 10
15.70683283190771
 20
139.6676655275745
 30
0.0
 11
15.70683283190771
 21
-116.3323344724254
 31
0.0
  0
LINE
  8
ITEM_50
 10
-4.29316716809231
 20
139.6676655275745
 30
0.0
 11
-4.29316716809231
 21
-116.3323344724254
 31
0.0
  0
LINE
  8
ITEM_50
 10
0.7068328319076898
 20
139.6676655275745
 30
0.0
 11
0.7068328319076898
 21
-116.3323344724254
 31
0.0
  0
LINE
  8
ITEM_50
 10
6.956832831907689
 20
139.6676655275745
 30
0.0
 11
6.956832831907689
 21
-116.3323344724254
 31
0.0
  0
LINE
  8
ITEM_50
 10
9.456832831907689
 20
139.6676655275745
 30
0.0
 11
9.456832831907689
 21
-116.3323344724254
 31
0.0
  0
LINE
  8
ITEM_50
 10
-10.54316716809231
 20
139.6676655275745
 30
0.0
 11
-10.54316716809231
 21
-116.3323344724254
 31
0.0
  0
LINE
  8
ITEM_50
 10
-13.04316716809231
 20
139.6676655275745
 30
0.0
 11
-13.04316716808503
 21
-116.3323344724254
 31
0.0
  0
LINE
  8
ITEM_50
 10
-30.54316716809231
 20
139.6676655275745
 30
0.0
 11
-30.54316716809231
 21
138.6676655275745
 31
0.0
  0
LINE
  8
ITEM_50
 10
-30.54316716809231
 20
-116.3323344724254
 30
0.0
 11
-30.54316716809231
 21
139.6676655275745
 31
0.0
  0
LINE
  8
ITEM_50
 10
-33.04316716809231
 20
139.6676655275745
 30
0.0
 11
-33.04316716809231
 21
-116.3323344724254
 31
0.0
  0
LINE
  8
ITEM_50
 10
-39.29316716809231
 20
139.6676655275745
 30
0.0
 11
-39.29316716809231
 21
-116.3323344724254
 31
0.0
  0
LINE
  8
ITEM_50
 10
-44.29316716809231
 20
139.6676655275745
 30
0.0
 11
-44.29316716809231
 21
-116.3323344724254
 31
0.0
  0
LINE
  8
ITEM_50
 10
99.2732683672205
 20
243.4858147634991
 30
0.0
 11
99.2732683672205
 21
163.4858147635032
 31
0.0
  0
LINE
  8
ITEM_50
 10
99.2732683672205
 20
243.4858147634991
 30
0.0
 11
355.2732683672205
 21
243.4858147634991
 31
0.0
  0
LINE
  8
ITEM_50
 10
99.2732683672205
 20
163.4858147635032
 30
0.0
 11
355.2732683672205
 21
163.4858147635032
 31
0.0
  0
LINE
  8
ITEM_50
 10
99.2732683672205
 20
227.4858147635001
 30
0.0
 11
355.2732683672205
 21
227.4858147635001
 31
0.0
  0
LINE
  8
ITEM_50
 10
99.2732683672205
 20
219.4858147635001
 30
0.0
 11
355.2732683672205
 21
219.4858147635001
 31
0.0
  0
LINE
  8
ITEM_50
 10
99.2732683672205
 20
210.4858147635001
 30
0.0
 11
355.2732683672205
 21
210.4858147635001
 31
0.0
  0
LINE
  8
ITEM_50
 10
99.2732683672205
 20
207.4858147635001
 30
0.0
 11
355.2732683672205
 21
207.4858147635001
 31
0.0
  0
LINE
  8
ITEM_50
 10
99.2732683672205
 20
204.9858147635001
 30
0.0
 11
355.2732683672205
 21
204.9858147635001
 31
0.0
  0
LINE
  8
ITEM_50
 10
99.2732683672205
 20
201.9858147635001
 30
0.0
 11
355.2732683672205
 21
201.9858147635001
 31
0.0
  0
LINE
  8
ITEM_50
 10
99.2732683672205
 20
199.4858147635001
 30
0.0
 11
355.2732683672205
 21
199.4858147635001
 31
0.0
  0
LINE
  8
ITEM_50
 10
99.2732683672205
 20
196.4858147635001
 30
0.0
 11
355.2732683672205
 21
196.4858147635001
 31
0.0
  0
LINE
  8
ITEM_50
 10
99.2732683672205
 20
187.4858147635001
 30
0.0
 11
355.2732683672205
 21
187.4858147635001
 31
0.0
  0
LINE
  8
ITEM_50
 10
99.2732683672205
 20
179.4858147635001
 30
0.0
 11
355.2732683672205
 21
179.4858147635001
 31
0.0
  0
LINE
  8
ITEM_50
 10
-47.79171994288921
 20
163.4858147635004
 30
0.0
 11
64.20828005711072
 21
163.4858147635004
 31
0.0
  0
LINE
  8
ITEM_50
 10
-47.79171994288915
 20
243.4858147635004
 30
0.0
 11
64.20828005711072
 21
243.4858147635004
 31
0.0
  0
LINE
  8
ITEM_50
 10
-51.79171994288921
 20
167.4858147635004
 30
0.0
 11
-51.79171994288915
 21
239.4858147635004
 31
0.0
  0
LINE
  8
ITEM_50
 10
68.20828005711072
 20
167.4858147635004
 30
0.0
 11
68.20828005711072
 21
239.4858147635004
 31
0.0
  0
ARC
  8
ITEM_50
 10
64.20828005711072
 20
167.4858147635004
 30
0.0
 40
4.0
 50
270.0
 51
0.0
  0
ARC
  8
ITEM_50
 10
-47.79171994288921
 20
167.4858147635004
 30
0.0
 40
4.0
 50
180.0
 51
270.0
  0
ARC
  8
ITEM_50
 10
-47.79171994288915
 20
239.4858147635004
 30
0.0
 40
4.0
 50
90.0
 51
180.0
  0
ARC
  8
ITEM_50
 10
64.20828005711072
 20
239.4858147635004
 30
0.0
 40
4.0
 50
360.0
 51
90.0
  0
CIRCLE
  8
ITEM_50
 10
-31.79171994289046
 20
167.9858147635017
 30
0.0
 40
2.299999999999999
  0
CIRCLE
  8
ITEM_50
 10
-31.79171994289046
 20
167.9858147635017
 30
0.0
 40
4.5
  0
LINE
  8
ITEM_STP
 10
-31.79171994289046
 20
174.3771664200428
 30
0.0
 11
-31.79171994289046
 21
162.308921411312
 31
0.0
  0
LINE
  8
ITEM_STP
 10
-25.89302347667998
 20
167.9858147635017
 30
0.0
 11
-38.52591469757695
 21
167.9858147635017
 31
0.0
  0
LINE
  8
ITEM_STP
 10
54.10697652331995
 20
167.9858147635017
 30
0.0
 11
41.47408530242299
 21
167.9858147635017
 31
0.0
  0
CIRCLE
  8
ITEM_50
 10
48.20828005710947
 20
167.9858147635017
 30
0.0
 40
4.5
  0
CIRCLE
  8
ITEM_50
 10
48.20828005710947
 20
167.9858147635017
 30
0.0
 40
2.299999999999999
  0
LINE
  8
ITEM_STP
 10
48.20828005710947
 20
174.3771664200428
 30
0.0
 11
48.20828005710947
 21
162.308921411312
 31
0.0
  0
LINE
  8
ITEM_STP
 10
54.10697652331995
 20
238.9858147635017
 30
0.0
 11
41.47408530242299
 21
238.9858147635017
 31
0.0
  0
CIRCLE
  8
ITEM_50
 10
48.20828005710947
 20
238.9858147635017
 30
0.0
 40
4.5
  0
CIRCLE
  8
ITEM_50
 10
48.20828005710947
 20
238.9858147635017
 30
0.0
 40
2.299999999999999
  0
LINE
  8
ITEM_STP
 10
48.20828005710947
 20
245.3771664200428
 30
0.0
 11
48.20828005710947
 21
233.3089214113121
 31
0.0
  0
LINE
  8
ITEM_STP
 10
-25.89302347667998
 20
238.9858147635017
 30
0.0
 11
-38.52591469757695
 21
238.9858147635017
 31
0.0
  0
CIRCLE
  8
ITEM_50
 10
-31.79171994289046
 20
238.9858147635017
 30
0.0
 40
4.5
  0
CIRCLE
  8
ITEM_50
 10
-31.79171994289046
 20
238.9858147635017
 30
0.0
 40
2.299999999999999
  0
LINE
  8
ITEM_STP
 10
-31.79171994289046
 20
245.3771664200428
 30
0.0
 11
-31.79171994289046
 21
233.3089214113121
 31
0.0
  0
LINE
  8
ITEM_50
 10
-51.79316716809233
 20
-116.3323344724254
 30
0.0
 11
-51.79316716809233
 21
-120.3323344724254
 31
0.0
  0
LINE
  8
ITEM_50
 10
-47.79316716809233
 20
-124.3323344724254
 30
0.0
 11
64.20683283190766
 21
-124.3323344724254
 31
0.0
  0
LINE
  8
ITEM_50
 10
68.20683283190766
 20
-116.3323344724254
 30
0.0
 11
68.20683283190766
 21
-120.3323344724254
 31
0.0
  0
LINE
  8
ITEM_50
 10
-51.79316716809228
 20
-116.3323344724254
 30
0.0
 11
68.20683283190766
 21
-116.3323344724254
 31
0.0
  0
ARC
  8
ITEM_50
 10
-47.79316716809233
 20
-120.3323344724254
 30
0.0
 40
4.0
 50
180.0
 51
270.0
  0
ARC
  8
ITEM_50
 10
64.20683283190766
 20
-120.3323344724254
 30
0.0
 40
4.0
 50
270.0
 51
0.0
  0
LINE
  8
ITEM_50
 10
68.20683283190768
 20
-116.3323344724254
 30
0.0
 11
-51.79171994288921
 21
-116.3323344724254
 31
0.0
  0
LINE
  8
ITEM_50
 10
355.2732683672205
 20
243.4858147634991
 30
0.0
 11
355.2732683672205
 21
163.4858147635032
 31
0.0
  0
LINE
  8
ITEM_50
 10
-331.9866525462645
 20
243.4858147634991
 30
0.0
 11
-331.9866525462645
 21
163.4858147635032
 31
0.0
  0
ARC
  8
ITEM_50
 10
359.2732683672205
 20
167.4858147634991
 30
0.0
 40
4.0
 50
270.0000000000002
 51
0.0
  0
ARC
  8
ITEM_50
 10
359.2732683672205
 20
239.4858147634992
 30
0.0
 40
4.0
 50
0.0
 51
90.00000000000041
  0
LINE
  8
ITEM_50
 10
355.2732683672205
 20
243.4858147634992
 30
0.0
 11
355.2732683672205
 21
163.4858147634992
 31
0.0
  0
LINE
  8
ITEM_50
 10
355.2732683672205
 20
163.4858147634991
 30
0.0
 11
359.2732683672205
 21
163.4858147634991
 31
0.0
  0
LINE
  8
ITEM_50
 10
363.2732683672206
 20
239.4858147634992
 30
0.0
 11
363.2732683672206
 21
167.4858147634991
 31
0.0
  0
LINE
  8
ITEM_50
 10
355.2732683672205
 20
243.4858147634991
 30
0.0
 11
359.2732683672205
 21
243.4858147634992
 31
0.0
  0
LINE
  8
ITEM_50
 10
99.2732683672205
 20
243.4858147634991
 30
0.0
 11
95.2732683672205
 21
243.4858147634992
 31
0.0
  0
LINE
  8
ITEM_50
 10
91.27326836722039
 20
239.4858147634992
 30
0.0
 11
91.27326836722039
 21
167.4858147634991
 31
0.0
  0
LINE
  8
ITEM_50
 10
99.2732683672205
 20
163.4858147634991
 30
0.0
 11
95.2732683672205
 21
163.4858147634991
 31
0.0
  0
LINE
  8
ITEM_50
 10
99.2732683672205
 20
243.4858147634992
 30
0.0
 11
99.2732683672205
 21
163.4858147634992
 31
0.0
  0
ARC
  8
ITEM_50
 10
95.2732683672205
 20
239.4858147634992
 30
0.0
 40
4.0
 50
89.99999999999958
 51
180.0
  0
ARC
  8
ITEM_50
 10
95.2732683672205
 20
167.4858147634991
 30
0.0
 40
4.0
 50
180.0
 51
269.9999999999997
  0
LINE
  8
ITEM_50
 10
99.2732683672205
 20
243.4858147634991
 30
0.0
 11
99.2732683672205
 21
163.4858147635032
 31
0.0
  0
LINE
  8
ITEM_50
 10
68.20683283190768
 20
139.6676655275745
 30
0.0
 11
-51.79171994288921
 21
139.6676655275745
 31
0.0
  0
ARC
  8
ITEM_50
 10
64.20683283190766
 20
143.6676655275746
 30
0.0
 40
4.0
 50
0.0
 51
90.0
  0
ARC
  8
ITEM_50
 10
-47.79316716809233
 20
143.6676655275745
 30
0.0
 40
4.0
 50
90.0
 51
180.0
  0
LINE
  8
ITEM_50
 10
-51.79316716809228
 20
139.6676655275745
 30
0.0
 11
68.20683283190766
 21
139.6676655275746
 31
0.0
  0
LINE
  8
ITEM_50
 10
68.20683283190766
 20
139.6676655275745
 30
0.0
 11
68.20683283190766
 21
143.6676655275746
 31
0.0
  0
LINE
  8
ITEM_50
 10
-47.79316716809233
 20
147.6676655275745
 30
0.0
 11
64.20683283190766
 21
147.6676655275746
 31
0.0
  0
LINE
  8
ITEM_50
 10
-51.79316716809233
 20
139.6676655275745
 30
0.0
 11
-51.79316716809233
 21
143.6676655275745
 31
0.0
  0
LINE
  8
ITEM_50
 10
-75.9866525462645
 20
243.4858147634991
 30
0.0
 11
-71.9866525462645
 21
243.4858147634992
 31
0.0
  0
LINE
  8
ITEM_50
 10
-67.98665254626439
 20
239.4858147634992
 30
0.0
 11
-67.98665254626439
 21
167.4858147634991
 31
0.0
  0
LINE
  8
ITEM_50
 10
-75.9866525462645
 20
163.4858147634991
 30
0.0
 11
-71.9866525462645
 21
163.4858147634991
 31
0.0
  0
LINE
  8
ITEM_50
 10
-75.9866525462645
 20
243.4858147634992
 30
0.0
 11
-75.9866525462645
 21
163.4858147634992
 31
0.0
  0
ARC
  8
ITEM_50
 10
-71.9866525462645
 20
239.4858147634992
 30
0.0
 40
4.0
 50
0.0
 51
90.00000000000041
  0
ARC
  8
ITEM_50
 10
-71.9866525462645
 20
167.4858147634991
 30
0.0
 40
4.0
 50
270.0000000000002
 51
0.0
  0
LINE
  8
ITEM_50
 10
-75.9866525462645
 20
243.4858147634991
 30
0.0
 11
-75.9866525462645
 21
163.4858147635032
 31
0.0
  0
LINE
  8
ITEM_50
 10
-331.9866525462645
 20
243.4858147634991
 30
0.0
 11
-331.9866525462645
 21
163.4858147635032
 31
0.0
  0
ARC
  8
ITEM_50
 10
-335.9866525462645
 20
167.4858147634991
 30
0.0
 40
4.0
 50
180.0
 51
269.9999999999997
  0
ARC
  8
ITEM_50
 10
-335.9866525462645
 20
239.4858147634992
 30
0.0
 40
4.0
 50
89.99999999999958
 51
180.0
  0
LINE
  8
ITEM_50
 10
-331.9866525462645
 20
243.4858147634992
 30
0.0
 11
-331.9866525462645
 21
163.4858147634992
 31
0.0
  0
LINE
  8
ITEM_50
 10
-331.9866525462645
 20
163.4858147634991
 30
0.0
 11
-335.9866525462645
 21
163.4858147634991
 31
0.0
  0
LINE
  8
ITEM_50
 10
-339.9866525462646
 20
239.4858147634992
 30
0.0
 11
-339.9866525462646
 21
167.4858147634991
 31
0.0
  0
LINE
  8
ITEM_50
 10
-331.9866525462645
 20
243.4858147634991
 30
0.0
 11
-335.9866525462645
 21
243.4858147634992
 31
0.0
  0
LINE
  8
ITEM_50
 10
-331.9866525462645
 20
243.4858147634991
 30
0.0
 11
-331.9866525462645
 21
163.4858147635032
 31
0.0
  0
CIRCLE
  8
ITEM_50
 10
13.2082800571118
 20
225.9858147634994
 30
0.0
 40
5.5
  0
CIRCLE
  8
ITEM_50
 10
13.2082800571118
 20
225.9858147634994
 30
0.0
 40
6.5
  0
LINE
  8
ITEM_STPG
 10
13.2082800571118
 20
234.7753707958038
 30
0.0
 11
13.2082800571118
 21
217.3493004564301
 31
0.0
  0
LINE
  8
ITEM_STPG
 10
5.244045600461873
 20
225.9858147634994
 30
0.0
 11
21.13602741252347
 21
225.9858147634994
 31
0.0
  0
LINE
  8
ITEM_STPG
 10
5.244045600461873
 20
205.9858147634993
 30
0.0
 11
21.13602741252347
 21
205.9858147634993
 31
0.0
  0
LINE
  8
ITEM_STPG
 10
13.2082800571118
 20
214.7753707958038
 30
0.0
 11
13.2082800571118
 21
197.3493004564301
 31
0.0
  0
CIRCLE
  8
ITEM_50
 10
13.2082800571118
 20
205.9858147634994
 30
0.0
 40
6.5
  0
CIRCLE
  8
ITEM_50
 10
13.2082800571118
 20
205.9858147634994
 30
0.0
 40
5.5
  0
LINE
  8
ITEM_STPG
 10
-14.75595439953812
 20
205.9858147634993
 30
0.0
 11
1.136027412523475
 21
205.9858147634993
 31
0.0
  0
LINE
  8
ITEM_STPG
 10
-6.791719942888192
 20
214.7753707958038
 30
0.0
 11
-6.791719942888192
 21
197.3493004564301
 31
0.0
  0
CIRCLE
  8
ITEM_50
 10
-6.791719942888192
 20
205.9858147634994
 30
0.0
 40
6.5
  0
CIRCLE
  8
ITEM_50
 10
-6.791719942888192
 20
205.9858147634994
 30
0.0
 40
5.5
  0
LINE
  8
ITEM_STPG
 10
-14.75595439953812
 20
225.9858147634993
 30
0.0
 11
1.136027412523475
 21
225.9858147634993
 31
0.0
  0
LINE
  8
ITEM_STPG
 10
-6.791719942888192
 20
234.7753707958038
 30
0.0
 11
-6.791719942888192
 21
217.3493004564301
 31
0.0
  0
CIRCLE
  8
ITEM_50
 10
-6.791719942888192
 20
225.9858147634994
 30
0.0
 40
6.5
  0
CIRCLE
  8
ITEM_50
 10
-6.791719942888192
 20
225.9858147634994
 30
0.0
 40
5.5
  0
CIRCLE
  8
ITEM_50
 10
38.2082800571118
 20
184.4858147634994
 30
0.0
 40
8.5
  0
CIRCLE
  8
ITEM_50
 10
38.2082800571118
 20
184.4858147634994
 30
0.0
 40
9.5
  0
LINE
  8
ITEM_STPG
 10
38.2082800571118
 20
172.8822539782417
 30
0.0
 11
38.2082800571118
 21
196.0465561327129
 31
0.0
  0
LINE
  8
ITEM_STPG
 10
49.96288892281737
 20
184.4858147634994
 30
0.0
 11
26.89430207971739
 21
184.4858147634994
 31
0.0
  0
LINE
  8
ITEM_STPG
 10
14.96288892281737
 20
184.4858147634994
 30
0.0
 11
-8.105697920282608
 21
184.4858147634994
 31
0.0
  0
CIRCLE
  8
ITEM_50
 10
3.208280057111807
 20
184.4858147634995
 30
0.0
 40
9.5
  0
CIRCLE
  8
ITEM_50
 10
3.208280057111807
 20
184.4858147634995
 30
0.0
 40
8.5
  0
LINE
  8
ITEM_STPG
 10
3.208280057111807
 20
172.8822539782418
 30
0.0
 11
3.208280057111807
 21
196.046556132713
 31
0.0
  0
LINE
  8
ITEM_STPG
 10
-20.03711107718265
 20
184.4858147634994
 30
0.0
 11
-43.10569792028263
 21
184.4858147634994
 31
0.0
  0
CIRCLE
  8
ITEM_50
 10
-31.79171994288822
 20
184.4858147634994
 30
0.0
 40
9.5
  0
CIRCLE
  8
ITEM_50
 10
-31.79171994288822
 20
184.4858147634994
 30
0.0
 40
8.5
  0
LINE
  8
ITEM_STPG
 10
-31.79171994288822
 20
172.8822539782417
 30
0.0
 11
-31.79171994288822
 21
196.0465561327129
 31
0.0
  0
CIRCLE
  8
ITEM_50
 10
38.2082800571118
 20
215.9858147634994
 30
0.0
 40
10.5
  0
CIRCLE
  8
ITEM_50
 10
38.2082800571118
 20
215.9858147634994
 30
0.0
 40
11.5
  0
LINE
  8
ITEM_STPG
 10
52.36796456551783
 20
215.9858147634993
 30
0.0
 11
24.40380001179559
 21
215.9858147634993
 31
0.0
  0
LINE
  8
ITEM_STPG
 10
38.2082800571118
 20
201.1211067006622
 30
0.0
 11
38.2082800571118
 21
229.2350140471603
 31
0.0
  0
LINE
  8
ITEM_STPG
 10
-31.79171994288822
 20
201.1211067006622
 30
0.0
 11
-31.79171994288822
 21
229.2350140471603
 31
0.0
  0
LINE
  8
ITEM_STPG
 10
-17.63203543448221
 20
215.9858147634993
 30
0.0
 11
-45.59619998820443
 21
215.9858147634993
 31
0.0
  0
CIRCLE
  8
ITEM_50
 10
-31.79171994288822
 20
215.9858147634994
 30
0.0
 40
11.5
  0
CIRCLE
  8
ITEM_50
 10
-31.79171994288822
 20
215.9858147634994
 30
0.0
 40
10.5
  0
ENDSEC
  0
EOF
